Yiruma » Песни » River Flows In You

River Flows In You табулатура

Музыкант: Yiruma

I simplify most of the song so it won't be that difficult
over all it should be pretty easy..took me about half an hour to play it
it's not exact but it should pretty much do the work lol
Thx ^-^

E||---5--4--5--4--5-----5-----|------------|---5--4--5--4--5-----5----|
B||------------------5-----3--|------------|------------------5-----3-|
G||---------------------------|--2---4-----|--------------------------|
D||---------------------------|------------|--------------------------|
A||---------------------------|------------|--------------------------|
e||---------------------------|------------|--------------------------|

E||-------------|--5--4--5--4--5-----5--------------------------------|
B||-------------|-----------------5------3----2--3--5-----2-----------|
G||--2---4------|--------------------------------------------4--------|
D||-------------|-----------------------------------------------------|
A||-------------|-----------------------------------------------------|
e||-------------|-----------------------------------------------------|

E||------------------------|------------------------------------------|
B||------------------------|--------5--------3---2---0----------------|
G||--2--1--2-----2--4--6---|-6--7-------------------------------------|
D||-----------2------------|------------------------------------------|
A||------------------------|------------------------------------------|
e||------------------------|------------------------------------------|

(optional)
E||-------------|--5--4--5--4--5-----5--------------------9---7-------|
B||-------------|-----------------5-----3----2---3--5------------------|
G||--2---4------|-----------------------------------------------------|
D||-------------|-----------------------------------------------------|
A||-------------|-----------------------------------------------------|
e||-------------|-----------------------------------------------------|

E||---9--7--5--4
http://www.guitarcamp.ru/

Другие варианты этой песни:

Тип Имя Автор Голосов
басс River Flows In You Paradox
guitarpro River Flows In You Paradox
powertab River Flows In You Paradox