Вход | Зарегистрироваться

War табулатура

Музыкант: Poets Of The Fall

Tab by: Flugsaft.

E ----------0---------0--------------------0----------------------|
B -----12----------12---12-------8-------8---8--------------------|
G ----12---11---11------------11----------------------------------|
D --------------------------0---------10--------------------------|
A ----------------------------------0-----------------------------|
E --0-------------------------------------------------------------|

E ----------0---------0-------------------------------------------|
B ------12---------12---12-------8--------8-10s12-----------------|
G ----12---11---11------------11----------------------------------|
D --------------------------0----------10-------------------------|
A -----------------------------------0----------------------------|
E --0-------------------------------------------------------------|

E -----------0---------0--------------------------------0------------0-----|
B -------12---------12---12-------8-------8--10----10----10-------5---5----|
G -----12---11---11------------11-----------------0--0-----0-----5-5---5---|
D ---------------------------0---------10-------------------0-----------0--|
A -----------------------------------0----------9--------------0-----------|
E --0----------------------------------------------------------------------|

E -------0----------0----------------------------------------------|
B ----7---7------5--5----------------------------------------------|
G ---7-7---7--------0----------------------------------------------|
D --0-------0---5---5----------------------------------------------|
A -------------3----3----------------------------------------------|
E -----------------------------------------------------------------|

This tab i figured out from: http://www.youtube.com/watch?v=MtdJOdft3O4

I don't really know the chorus .. it starts with an E (079900) and after (0791100) then
A (002200) after that an (300200) the other chords i don't know.. Maybe you guys can
that one out ;)
http://www.guitarcamp.ru/