Вход | Зарегистрироваться
Nickelback » Песни » Far Away

Far Away аккорды

Музыкант: Nickelback

Band: Nickelback
Song: Far Away
Album: All The Right Reasons (Brand new)
Tunning: Standard e, B, G, D, A, e,
Chad Kroeger: Lead vocal and guitars
Ryen Peake: guitar and vocals
Mike Kroeger: Bass
Daniel Adair: Drums and vocals
Tabbed by Ben Downes
This is my 5th tab tha I have
Done for Nickelback

Intro/Verses
Gtr I (Verse 1) X 5
e e e e e e e e e e e e e e e e e e e e e e e e e e e e e e e e
|-------------------------------------------------------------------|
|---------------------------------------------------------2---------|
|-----4---3h4---------4---3h4---------4---3h4---------4-----4---4---|
|---4---4-----4-----4---4-----4-----4---4-----4-----4---4-----4-----|
|-2-------------2---------------------------------------------------|
|-----------------2-------------2-4-------------4-0-----------------|

Verse
This time, This place
Misused, Mistakes
Too long, Too late
Who was I to make you wait
Just one chance
Just one breath
Just incase theres just one left

e e e e e e e e e e e e e e e e e e e e e e e
|--------------------------------------------------|
|---------4-------------4---------------7-----7----|
|-----6-----6---6---6-----6---6-----9-----9---9----|
|---6---6-----6-------6-----6-----9---9-----9-8----|
|-4---------------4-------------7------------------|
|--------------------------------------------------|
Pre Chorus
Cause you know
You know, You know

Chorus
B F#m
That I love you
Ab Em
I have loved you all along
B F#m
And I miss you
Ab Em
Been far away for far too long
B F#m Ab
I keep dreamin' you'll be with me
Em B F#m
And you'll never go stop breathin
Ab Em
If I don't see you anymore

Intro/Verses
Gtr I (Verse 1) X 5
e e e e e e e e e e e e e e e e e e e e e e e e e e e e e e e e
|-------------------------------------------------------------------|
|---------------------------------------------------------2---------|
|-----4---3h4---------4---3h4---------4---3h4---------4-----4---4---|
|---4---4-----4-----4---4-----4-----4---4-----4-----4---4-----4-----|
|-2-------------2---------------------------------------------------|
|-----------------2-------------2-4-------------4-0-----------------|
2nd Verse
On my knees i'll ask
Last chance for one last dance
cause with you, I'd withstand
All of hell to hold your hand
I'd give it all
I'd give for us
Give anything but I won't give up

e e e e e e e e e e e e e e e e e e e e e e e
|--------------------------------------------------|
|---------4-------------4---------------7-----7----|
|-----6-----6---6---6-----6---6-----9-----9---9----|
|---6---6-----6-------6-----6-----9---9-----9-8----|
|-4---------------4-------------7------------------|
|--------------------------------------------------|
Pre Chorus
Cause you know
You know, You know

Chorus
B F#m
That I love you
Ab Em
I have loved you all along
B F#m
And I miss you
Ab Em
Been far away for far too long
B F#m Ab
I keep dreamin' you'll be with me
Em B F#m
And you'll never go stop breathin
Ab Em
If I don't see you anymore

Gtr I
e e e e e e e e e e e e e e e e e e e e e e e e e e e e e e e e
|-------------------------------------------------------------------|
|---------------------------------------------------------2---------|
|-----4---3h4---------4---3h4---------4---3h4---------4-----4---4---|
|---4---4-----4-----4---4-----4-----4---4-----4-----4---4-----4-----|
|-2-------------2---------------------------------------------------|
|-----------------2-------------2-4-------------4-0-----------------|
Bridge
So far away
Been far away for far too long
So far away
Been far away for far too long

e e e e e e e e e e e e e e e e e e e e e e e
|--------------------------------------------------|
|---------4-------------4---------------7-----7----|
|-----6-----6---6---6-----6---6-----9-----9---9----|
|---6---6-----6-------6-----6-----9---9-----9-8----|
|-4---------------4-------------7------------------|
|--------------------------------------------------|
Pre Chorus
But you know
You know, You know

Chorus
B F#m
I wanted
Ab Em
I wanted you to say
B F#m
Cause I needed
Ab
I need to hear you say
C# Ab
That I love you
Bb F#m
I have love you all along
C# Ab
And I forgive you
Bb F#m
For being far away for far too long
C# Ab Bb F#m
So keep Breathin' cause I'm not leavin' you anymore
C# Ab Bb F#m
Not leavin' hold on to me and never let me go
C# Ab Bb F#m
keep Breathin' cause I'm not leavin' you anymore
C# Ab Bb F#m
Not leavin' hold on to me and never let me go
C# Ab Bb F#m
Keep Breathin' Hold on to me and never let me go
C# Ab Bb F#m
Keep Breathin' and never let me go

Hold F#m for about 2 seconds

Hope you Enjoy the song
Good luck

http://www.guitarcamp.ru/

Другие варианты этой песни:

Тип Имя Автор Голосов
табы Far Away Paradox
басс Far Away Paradox
powertab Far Away Paradox