Забери аккорды

Музыкант: Сергей Бабкин Пятница

Сергей Бабкин - Забери
-------0-------|-------0-------|-------0--------|
-----0-----0---|-----0-----0---|-----0-----0----|
---0-----0---0-|---0-----0---0-|---0-----0---0--|
---------------|---------------|----------------|
---------------|---------------|----------------|
-3-------------|-2-------------|-0--------------|
---------------|-------0-------|
-----0-----0---|-----0-----0---|
---0-----0-----|---0-----0---0-|
---------------|---------------|
-2-----3-------|-5-------------|
---------------|---------------|
Sheff & Tip
http://www.guitarcamp.ru/

Другие варианты этой песни:

Тип Имя Автор Голосов
басс Забери Paradox
аудио Забери keks