Король и Шут » Песни » Лесник

Лесник табулатура

Музыкант: Король и Шут

Ну тут до меня много мастеров писалось! И всё-таки мой вариант гораздо круче!
Я надеюсь!

В начале играем с приглушкой!

Am
E||------------------0-0---|---------------0-0------|

B||---------1-1--3-3-------|------1-1--3-3----------|

G||----3-3-----------------|--3-3-------------------|

D||------------------------|------------------------|

A||------------------------|------------------------|

E||------------------------|------------------------|

F
---------------3-3--1-1--|-----------3-3--1-1---|

----------1-1------------|------1-1-------------|

--3-3--------------------|-3-3------------------|

-------------------------|----------------------|

-------------------------|----------------------|

-------------------------|----------------------|

Dm

--3-3--1-1---0-0--------|---3-3--1-1---0-0-------|

------------------3-3---|-------------------3-3--|

------------------------|------------------------|

------------------------|------------------------|

------------------------|------------------------|

------------------------|------------------------|


G
--------------------------|---------------------------||

-------0-0--1-1--3-3------|---------0--0--1-1--3-3----||

--0-0---------------------|---0--0-------------------*||

--------------------------|--------------------------*||

--------------------------|---------------------------||

--------------------------|---------------------------||

Ну а далее всё тоже только без приглушки! И первую ноту два раза,последующие единожды и так в каждом аккорде!
После этого идёт модная фишка на квинтах!
Am пауза Am F Dm(два раза) С/Dm G!
И ещё раз всё,что после паузы! Потом
Am
Замученный дорогой,
F G
Я выбился из сил.
Am
И в доме лесника я
F G
Ночлега попросил.

С улыбкой добродушной

Старик меня пустил.

И жестом дружелюбным

На ужин пригласил.

Далее ещё одна хрень на квинтах!

A Dm E и это будет после 1-го припева,2-го куплета!
Am
Будь как дома путник,
F
Я ни в чём не откажу,
Dm
Я ни в чём не откажу,
G
Я ни в чём не откажу!

Множество историй,

Коль желаешь расскажу,

Коль желаешь расскажу,

Коль желаешь расскажу!

На улице темнело,

Сидел я за столом.

Лесник сидел напротив,

Болтал о том о сем.

Что нет среди животных

У старика врагов,

Что нравится ему

Подкармливать волков.

Будь как дома путник,

Я ни в чём не откажу,

Я ни в чём не откажу,

Я ни в чём не откажу!

Множество историй,

Коль желаешь расскажу,

Коль желаешь расскажу,

Коль желаешь расскажу!

Hm
И волки среди ночи
G Am
Завыли под окном.
Hm
Старик заулыбался
G Am
И вдруг покинул дом.

Но вскоре возвратился

С ружьем на перевес:

\"Друзья хотят покушать,

Пойдем приятель в лес!\"

Будь как дома путник,

Я ни в чём не откажу,

Я ни в чём не откажу,

Я ни в чём не откажу!

Множество историй,

Коль желаешь расскажу,

Коль желаешь расскажу,

Коль желаешь расскажу!

Ну и под конец:
(лучше всего играть на зажатых баре)

A||---7-7---9-7--------|-----7-7---9-7----------|

E||-5------------------|--5---------------------|

----3-3--5--3----------|-----5-5---7-5--------|

-1---------------------|--3-------------------|

И мощно бъём по Am!!!!!
Да и ещё по поводу вступления,можно эти же ноты перевести на 6,5,4 струны!
Тоже хорошо звучит! Удачи!
http://www.guitarcamp.ru/

Другие варианты этой песни:

Тип Имя Автор Голосов
аккорды Лесник Paradox 0
аккорды Лесник Garribaldi 0
аккорды Лесник Garribaldi 0
аккорды Лесник Paradox 0
аккорды Лесник Paradox 0
табы Лесник Paradox 0
табы Лесник Paradox 0
табы Лесник Paradox 0
guitarpro Лесник Paradox 0