Вход | Зарегистрироваться
Ария » Песни » Беспечный ангел

Беспечный ангел табулатура

Музыкант: Ария

Band: Aria(RU)
Album: Tribute to Harley-Davidson
Song: Careless angel

Copyright (c) SNC-Records 1999
Version 1.0 - 7/12/2006

Transcribed By: Konstantin Morozov
Email: snoiprocks@yahoo.com

. - palm mute / - slide up to
\ - slide down to ~ - vibrato
h - hammer on b - Bend
p - pull off Suffixes for bend
t - tap f - full bend h - half bend
ph - pinched harmonic q - quarter bend t - tap bend
* - see comment ^ - Hold bend r release bend
x - Stuccatto ~ - vibrato bend
, - slight palm mute () - ghost note, sustained note
" - tremolo note <> - Trill

Tuning E A D G B E

Intro:

Em C G G
|----------------------------------------------------------------------------|
|------------------0-------------1---------------3---------------3-----------|
|----------------0---0---------0-----0---0-----0-----0---0-----0-------------|
|--------0-----2-------2-----2-----2---2-----0-----0---0-----0---------------|
|----0-2-----2-----------2-3-------------------------------------------------|
|--3-------0-------------------------------3---------------3-----------------|

Em C G G
|------------------------------------------------------------------3---------|
|------------------0-------------1---------------3---------------0---0-------|
|----------------0---0---------0-----0---0-----0-----0---0-----0-------0-----|
|--------0-----2-------2-----2-----2---2-----0-----0---0-----0-----------0---|
|----0-2-----2-----------2-3-------------------------------------------------|
|--3-------0-------------------------------3---------------3---------------3-|

Verse:

Em C G G
|--------------------------------------------------------------------------|
|------------------0-------------1---------------3---------------3---------|
|----------------0---0---------0-----0---0-----0-----0---0-----0-----------|
|--------0-----2-------2-----2-----2---2-----0-----0---0-----0-------------|
|----0-2-----2-----------2-3-----------------------------------------------|
|--3-------0-------------------------------3---------------3---------------|

Em C D D
|------------------------------------------------2-2/3/2---------2-2/0/2---|
|------------------0-------------1-------------3---------3-----3---------3-|
|----------------0---0---------0-----0---0---2---------------2-------------|
|--------0-----2-------2-----2-----2---2---0---------------0---------------|
|----0-2-----2-----------2-3-----------------------------------------------|
|--3-------0---------------------------------------------------------------|

Am G D Am
|----------0---------------3-------------2-2/3/2-----------0--------|
|--------1---1-----------0---0---------3---------3-------1---1------|
|------2-------2-------0-------0-----2-----------------2-------2----|
|----2-----------2---0-----------0-0-----------------2-----------2--|
|--0-----------------------------------------------0----------------|
|------------------3------------------------------------------------|

D Em C D
|--------2-2/3/2-----------0---------------0-------------2-3-3-3-2--|
|------3---------3-------0---0-----------1---1---------3---3-3-3-3--|
|----2-----------------0-------0-------0-------0-----2-----2-2-2-2--|
|--0-----------------2-----------2---2-----------2-0-------0-0-0-0--|
|------------------2---------------3-----------------------x-x-x-x--|
|----------------------------------------------------------x-x-x-x--|

Chorus:

Em C D C H7 Em C D C D
|--0-----0-----2-----0-----1-----0-----0-----2-----0-----2---|
|--0-----1-----3-----1-----0-----0-----1-----3-----1-----3---|
|--0-----0-----2-----0-----2-----0-----0-----2-----0-----2---|
|--2-----2-----0-----2-----1-----2-----2-----0-----2-----0---|
|--2-----3-----x-----3-----2-----2-----3-----x-----3-----x---|
|--0-----x-----x-----x-----x-----0-----x-----x-----x-----x---|

Am C G
|----------0---------------0---------------3-----------------|
|--------1---1-----------1---1-----------0---0---------------|
|------2-------2-------0-------0-------0-------0-------------|
|----2-----------2---2-----------2---0-----------0-----------|
|--0---------------3-----------------------------------------|
|----------------------------------3---------------3---------|

END
беспечный ангел
http://www.guitarcamp.ru/

Другие варианты этой песни:

Тип Имя Автор Голосов
аккорды Беспечный ангел Paradox
аккорды Беспечный ангел Paradox
аккорды Беспечный ангел Paradox
аккорды Беспечный ангел Garribaldi
табы Беспечный ангел Paradox
табы Беспечный ангел Guitaristtt
табы Беспечный ангел Paradox
табы Беспечный ангел Paradox
табы Беспечный ангел Paradox
табы Беспечный ангел Paradox
guitarpro Беспечный ангел UDALOV